ISO-10303-21;
HEADER;
FILE_DESCRIPTION((''),'2;1');
FILE_NAME('30011558','2024-06-24T14:01:26',('SYSTEM'),(''),
'CREO PARAMETRIC BY PTC INC, 2023424','CREO PARAMETRIC BY PTC INC, 2023424','');
FILE_SCHEMA(('CONFIG_CONTROL_DESIGN'));
ENDSEC;
DATA;
#1=CARTESIAN_POINT('',(0.E0,0.E0,0.E0));
#2=DIRECTION('',(0.E0,1.E0,0.E0));
#3=DIRECTION('',(-1.E0,0.E0,0.E0));
#4=AXIS2_PLACEMENT_3D('',#1,#2,#3);
#6=CARTESIAN_POINT('',(-1.1025E1,0.E0,0.E0));
#7=DIRECTION('',(0.E0,0.E0,1.E0));
#8=DIRECTION('',(1.E0,0.E0,0.E0));
#9=AXIS2_PLACEMENT_3D('',#6,#7,#8);
#11=CARTESIAN_POINT('',(1.1025E1,0.E0,0.E0));
#12=DIRECTION('',(0.E0,0.E0,-1.E0));
#13=DIRECTION('',(-1.E0,0.E0,0.E0));
#14=AXIS2_PLACEMENT_3D('',#11,#12,#13);
#16=CARTESIAN_POINT('',(0.E0,0.E0,0.E0));
#17=DIRECTION('',(0.E0,-1.E0,0.E0));
#18=DIRECTION('',(-1.E0,0.E0,0.E0));
#19=AXIS2_PLACEMENT_3D('',#16,#17,#18);
#21=CARTESIAN_POINT('',(-1.1025E1,0.E0,0.E0));
#22=DIRECTION('',(0.E0,0.E0,1.E0));
#23=DIRECTION('',(-1.E0,0.E0,0.E0));
#24=AXIS2_PLACEMENT_3D('',#21,#22,#23);
#26=CARTESIAN_POINT('',(1.1025E1,0.E0,0.E0));
#27=DIRECTION('',(0.E0,0.E0,-1.E0));
#28=DIRECTION('',(1.E0,0.E0,0.E0));
#29=AXIS2_PLACEMENT_3D('',#26,#27,#28);
#31=CARTESIAN_POINT('',(0.E0,0.E0,0.E0));
#32=DIRECTION('',(0.E0,-1.E0,0.E0));
#33=DIRECTION('',(-1.E0,0.E0,0.E0));
#34=AXIS2_PLACEMENT_3D('',#31,#32,#33);
#36=CARTESIAN_POINT('',(0.E0,0.E0,0.E0));
#37=DIRECTION('',(0.E0,1.E0,0.E0));
#38=DIRECTION('',(-1.E0,0.E0,0.E0));
#39=AXIS2_PLACEMENT_3D('',#36,#37,#38);
#41=CARTESIAN_POINT('',(-1.04E1,0.E0,0.E0));
#42=CARTESIAN_POINT('',(-1.165E1,0.E0,0.E0));
#43=VERTEX_POINT('',#41);
#44=VERTEX_POINT('',#42);
#45=CARTESIAN_POINT('',(1.04E1,0.E0,0.E0));
#46=CARTESIAN_POINT('',(1.165E1,0.E0,0.E0));
#47=VERTEX_POINT('',#45);
#48=VERTEX_POINT('',#46);
#49=CARTESIAN_POINT('',(0.E0,0.E0,0.E0));
#50=DIRECTION('',(0.E0,1.E0,0.E0));
#51=DIRECTION('',(1.E0,0.E0,0.E0));
#52=AXIS2_PLACEMENT_3D('',#49,#50,#51);
#53=TOROIDAL_SURFACE('',#52,1.1025E1,6.25E-1);
#55=ORIENTED_EDGE('',*,*,#54,.F.);
#57=ORIENTED_EDGE('',*,*,#56,.T.);
#59=ORIENTED_EDGE('',*,*,#58,.T.);
#61=ORIENTED_EDGE('',*,*,#60,.F.);
#62=EDGE_LOOP('',(#55,#57,#59,#61));
#63=FACE_OUTER_BOUND('',#62,.F.);
#64=ADVANCED_FACE('',(#63),#53,.T.);
#65=CARTESIAN_POINT('',(0.E0,0.E0,0.E0));
#66=DIRECTION('',(0.E0,1.E0,0.E0));
#67=DIRECTION('',(1.E0,0.E0,0.E0));
#68=AXIS2_PLACEMENT_3D('',#65,#66,#67);
#69=TOROIDAL_SURFACE('',#68,1.1025E1,6.25E-1);
#70=ORIENTED_EDGE('',*,*,#54,.T.);
#72=ORIENTED_EDGE('',*,*,#71,.T.);
#73=ORIENTED_EDGE('',*,*,#58,.F.);
#75=ORIENTED_EDGE('',*,*,#74,.F.);
#76=EDGE_LOOP('',(#70,#72,#73,#75));
#77=FACE_OUTER_BOUND('',#76,.F.);
#78=ADVANCED_FACE('',(#77),#69,.T.);
#79=CARTESIAN_POINT('',(0.E0,0.E0,0.E0));
#80=DIRECTION('',(0.E0,1.E0,0.E0));
#81=DIRECTION('',(1.E0,0.E0,0.E0));
#82=AXIS2_PLACEMENT_3D('',#79,#80,#81);
#83=TOROIDAL_SURFACE('',#82,1.1025E1,6.25E-1);
#85=ORIENTED_EDGE('',*,*,#84,.T.);
#86=ORIENTED_EDGE('',*,*,#74,.T.);
#88=ORIENTED_EDGE('',*,*,#87,.F.);
#89=ORIENTED_EDGE('',*,*,#71,.F.);
#90=EDGE_LOOP('',(#85,#86,#88,#89));
#91=FACE_OUTER_BOUND('',#90,.F.);
#92=ADVANCED_FACE('',(#91),#83,.T.);
#93=CARTESIAN_POINT('',(0.E0,0.E0,0.E0));
#94=DIRECTION('',(0.E0,1.E0,0.E0));
#95=DIRECTION('',(1.E0,0.E0,0.E0));
#96=AXIS2_PLACEMENT_3D('',#93,#94,#95);
#97=TOROIDAL_SURFACE('',#96,1.1025E1,6.25E-1);
#98=ORIENTED_EDGE('',*,*,#84,.F.);
#99=ORIENTED_EDGE('',*,*,#60,.T.);
#100=ORIENTED_EDGE('',*,*,#87,.T.);
#101=ORIENTED_EDGE('',*,*,#56,.F.);
#102=EDGE_LOOP('',(#98,#99,#100,#101));
#103=FACE_OUTER_BOUND('',#102,.F.);
#104=ADVANCED_FACE('',(#103),#97,.T.);
#108=DIMENSIONAL_EXPONENTS(0.E0,0.E0,0.E0,0.E0,0.E0,0.E0,0.E0);
#110=PLANE_ANGLE_MEASURE_WITH_UNIT(PLANE_ANGLE_MEASURE(1.745329251994E-2),#109);
#111=(CONVERSION_BASED_UNIT('DEGREE',#110)NAMED_UNIT(*)PLANE_ANGLE_UNIT());
#113=UNCERTAINTY_MEASURE_WITH_UNIT(LENGTH_MEASURE(3.297355780530E-3),#107,
'closure',
'Maximum model space distance between geometric entities at asserted connectivities');
#114=(GEOMETRIC_REPRESENTATION_CONTEXT(3)GLOBAL_UNCERTAINTY_ASSIGNED_CONTEXT((
#113))GLOBAL_UNIT_ASSIGNED_CONTEXT((#107,#111,#112))REPRESENTATION_CONTEXT
('ID1','3'));
#116=APPLICATION_CONTEXT(
'CONFIGURATION CONTROLLED 3D DESIGNS OF MECHANICAL PARTS AND ASSEMBLIES');
#117=APPLICATION_PROTOCOL_DEFINITION('international standard',
'config_control_design',1994,#116);
#118=DESIGN_CONTEXT('',#116,'design');
#119=MECHANICAL_CONTEXT('',#116,'mechanical');
#120=PRODUCT('30011558','30011558','NOT SPECIFIED',(#119));
#121=PRODUCT_DEFINITION_FORMATION_WITH_SPECIFIED_SOURCE('1','LAST_VERSION',#120,
.MADE.);
#125=PRODUCT_CATEGORY('part','');
#126=PRODUCT_RELATED_PRODUCT_CATEGORY('detail','',(#120));
#127=PRODUCT_CATEGORY_RELATIONSHIP('','',#125,#126);
#128=SECURITY_CLASSIFICATION_LEVEL('unclassified');
#129=SECURITY_CLASSIFICATION('','',#128);
#130=CC_DESIGN_SECURITY_CLASSIFICATION(#129,(#121));
#131=APPROVAL_STATUS('approved');
#132=APPROVAL(#131,'');
#133=CC_DESIGN_APPROVAL(#132,(#129,#121,#122));
#134=CALENDAR_DATE(124,24,6);
#135=COORDINATED_UNIVERSAL_TIME_OFFSET(2,0,.AHEAD.);
#136=LOCAL_TIME(14,1,2.6E1,#135);
#137=DATE_AND_TIME(#134,#136);
#138=APPROVAL_DATE_TIME(#137,#132);
#139=DATE_TIME_ROLE('creation_date');
#140=CC_DESIGN_DATE_AND_TIME_ASSIGNMENT(#137,#139,(#122));
#141=DATE_TIME_ROLE('classification_date');
#142=CC_DESIGN_DATE_AND_TIME_ASSIGNMENT(#137,#141,(#129));
#143=PERSON('UNSPECIFIED','UNSPECIFIED',$,$,$,$);
#144=ORGANIZATION('UNSPECIFIED','UNSPECIFIED','UNSPECIFIED');
#145=PERSON_AND_ORGANIZATION(#143,#144);
#146=APPROVAL_ROLE('approver');
#147=APPROVAL_PERSON_ORGANIZATION(#145,#132,#146);
#148=PERSON_AND_ORGANIZATION_ROLE('creator');
#149=CC_DESIGN_PERSON_AND_ORGANIZATION_ASSIGNMENT(#145,#148,(#121,#122));
#150=PERSON_AND_ORGANIZATION_ROLE('design_supplier');
#151=CC_DESIGN_PERSON_AND_ORGANIZATION_ASSIGNMENT(#145,#150,(#121));
#152=PERSON_AND_ORGANIZATION_ROLE('classification_officer');
#153=CC_DESIGN_PERSON_AND_ORGANIZATION_ASSIGNMENT(#145,#152,(#129));
#154=PERSON_AND_ORGANIZATION_ROLE('design_owner');
#155=CC_DESIGN_PERSON_AND_ORGANIZATION_ASSIGNMENT(#145,#154,(#120));
#5=CIRCLE('',#4,1.04E1);
#10=CIRCLE('',#9,6.25E-1);
#15=CIRCLE('',#14,6.25E-1);
#20=CIRCLE('',#19,1.04E1);
#25=CIRCLE('',#24,6.25E-1);
#30=CIRCLE('',#29,6.25E-1);
#35=CIRCLE('',#34,1.165E1);
#40=CIRCLE('',#39,1.165E1);
#54=EDGE_CURVE('',#43,#44,#10,.T.);
#56=EDGE_CURVE('',#43,#47,#5,.T.);
#58=EDGE_CURVE('',#47,#48,#15,.T.);
#60=EDGE_CURVE('',#44,#48,#40,.T.);
#71=EDGE_CURVE('',#44,#48,#35,.T.);
#74=EDGE_CURVE('',#43,#47,#20,.T.);
#84=EDGE_CURVE('',#44,#43,#25,.T.);
#87=EDGE_CURVE('',#48,#47,#30,.T.);
#105=CLOSED_SHELL('',(#64,#78,#92,#104));
#106=MANIFOLD_SOLID_BREP('',#105);
#107=(LENGTH_UNIT()NAMED_UNIT(*)SI_UNIT(.MILLI.,.METRE.));
#109=(NAMED_UNIT(*)PLANE_ANGLE_UNIT()SI_UNIT($,.RADIAN.));
#112=(NAMED_UNIT(*)SI_UNIT($,.STERADIAN.)SOLID_ANGLE_UNIT());
#115=ADVANCED_BREP_SHAPE_REPRESENTATION('',(#106),#114);
#122=PRODUCT_DEFINITION('design','',#121,#118);
#123=PRODUCT_DEFINITION_SHAPE('','SHAPE FOR 30011558.',#122);
#124=SHAPE_DEFINITION_REPRESENTATION(#123,#115);
ENDSEC;
END-ISO-10303-21;
